You are on page 1of 4

Cancion: Hana No Kusari (cadena de flores)

Interprete: Maki Ikuno con Marina del Ray


Informacion adicional: (1er) tema de cierre de las ovas de "Saint seiya: The Los
t Canvas"

***para una correcta visualizacion de este documento, utilizar fuente "courier"*


**

Facil/easy
2 tonos abajo / 2 steps down
VERSO
E|-------0----0-----------------------------------------------------------|
B|-0-2-3----3---3--2-0-3--2-3--2-3-2-----------0-0-----0--2----2--3-2-3-2-|
G|------------------------------------2-2-2-0-------3---------------------|
D|----------------------------------------------------------4-------------|
A|------------------------------------------------------------------------|
E|------------------------------------------------------------------------|
Nakushita iro wa too-i hi no kioku Furui e no gu no hako sotto akereba

E|-------0----0-----------------------------------------------0--|
B|-0-2-3----3---3--2-0-3--2-2---------------0---0-2---2-2-3-3----|
G|-----------------------------2-2--0---0-----3------------------|
D|------------------------------------4-------------4------------|
A|---------------------------------------------------------------|
E|---------------------------------------------------------------|
O-sanai tomo ga Itsumo ita yo ne kawaru koto nai Ano ega o o

PRECORO
E|--------------0-2------------------0-----------0-------0-2-0----|
B|-3-3-3---2--3-----3-3------------------3--2-3----3-2-3-------4--|
G|----------------------2-2-------0-------------------------------|
D|----------------------------4-4---------------------------------|
A|----------------------------------------------------------------|
E|----------------------------------------------------------------|
Futari de yume o e-gaita Kokoro no kyanbasu mada Iro Asena-i

E|--------------0----2---3--2--0----2-2--0-0--2-3-2-2---|
B|-3-3-3--2--3-------------------3----------------------|
G|------------------------------------------------------|
D|------------------------------------------------------|
A|------------------------------------------------------|
E|------------------------------------------------------|
Kimi no te to boku no te wo kasaneta hi no nukumori

CORO
E|---0-2--3-2----0--2-3-2-----0--2-3-2--2-2-0--0-2-3--5-2-3--3-2-0-3--3-2-2|
B|-3-----------3------------3----------------------------------------------|
G|-------------------------------------------------------------------------|
D|-------------------------------------------------------------------------|
A|-------------------------------------------------------------------------|
E|-------------------------------------------------------------------------|
Hito wa naze itoshisa to nikushimi wo awase-mo--tte itsumo Ikiru no darou

E|---0-2-3-2-----0-2-3--2-----0-2-3-2-3-2-0--------------------0-0--------|
B|-3-----------3------------3---------------3-2-0----3-2--2-3-------3-3---|
G|------------------------------------------------------------------------|
D|------------------------------------------------------------------------|
A|------------------------------------------------------------------------|
E|------------------------------------------------------------------------|
Yorokobi to kanashimi wo Karamasetsumuida seishun no towa no kizuna

E|---------------------|
B|-0-2-0--3--2-2----0--|
G|---------------2-----|
D|---------------------|
A|---------------------|
E|---------------------|
ha-na no kusari yo

Avanzada /advanced
h = hammer (martillo)
/ = slide (deslizamiento)
~ = vibrato (vibracion. Tambien se lo representa con "v")
^ = bend (estirar. Tambien se lo representa con "b")

VERSO
* * * * * * * * * * * * * * * * * * * * * * * *
E |-----------------------------------------------------------------------|
B |----6-7-9--7-9-7--6----------------------------------------------------|
G |--8-----------------8/11-10-11-10-11-10---6-6-6-4--6/8--8--7--8-10-----|
D |-----------------------------------------------------------------------|
A |-----------------------------------------------------------------------|
E |-----------------------------------------------------------------------|
Nakushita iro wa too-i hi no ki-o-ku Furui e no gu no hako

* * * * * * * * * * * * * * * * * * * * * * *
E |-------------------|---------------------------------------------------|
B |----10-11-10-11-10-|---6-7-9--7-9-7--6---------------------------------|
G |--8----------------|-8-----------------8-8/11-10-10/6-6-6--------------|
D |-------------------|----------------------------------------9-8-8h9----|
A |-------------------|---------------------------------------------------|
E |-------------------|---------------------------------------------------|
sotto a-ker-eb-a O-sanai tomo ga Itsumo i-ta yo ne kawaru

* * * * * * * * * *
E |-------------------------------|
B |----------------------7-7h9-9--|
G |--8-7-8-10----8/10-10----------|
D |------------8------------------|
A |-------------------------------|
E |-------------------------------|
koto na-i A-no e-ga o o

PRE-CORO
* * * * * * * * * * * * * * * * * * * * * * * * * *
E |-----------------------------------------------------------------6-----|
B |-6/7-7-7--6-7--9~/11--7-7/2-2-2---------7/9--7-6-7-9--7-6--7-8/9---9-8-|
G |-----------------------------------------------------------------------|
D |--------------------------------8-8-8h9--------------------------------|
A |-----------------------------------------------------------------------|
E |-----------------------------------------------------------------------|
Futari de yume o e-gai-ta Koko-ro no kyanbasu mada Iro A-sena-i

* * * * * * * * * * * * * * * * * * * *
E |--------------------------------------------------------------------|
B |--7-7--7--6-7--9-9/11--12-9/11-9---11-9h11-9-9--11-11h12-11-10h11---|
G |---------------------------------11---------------------------------|
D |--------------------------------------------------------------------|
A |--------------------------------------------------------------------|
E |--------------------------------------------------------------------|
Kimi no te to boku no te wo kasa-ne-ta hi no nukumori

CORO
* * * * * * * * * * * * * * * * * *
E |---------------------------------------------------------------------|
B |-----9-9h11-12-11------9-9h11-12-11------9-11-11h12-11-11-10h11-9----|
G |--11----------------11----------------11-----------------------------|
D |---------------------------------------------------------------------|
A |------------------------------------------|--------------------------|
E |------------------------------------------|--------------------------|
Hito wa na-ze i-to-shi-sa to ni-kushi--mi wo a---wa-se

* * * * * * * * * * * * * * * * * *
E |------------9--------------------------------------------------------|
B |--9-9h11-12---11-11/12--12-11-9-12--11/12-11-10h11-----9-9h11-12-11--|
G |----------------------------------------------------11---------------|
D |---------------------------------------------------------------------|
A |---------------------------------------|-----------------------------|
E |---------------------------------------|-----------------------------|
mo--o-tte itsu----mo Ikir-u no da-ro---u Yo-ro--ko-bi to

* * * * * * * * * * * * * * * *
E |--------------------------------------------------------------|
B |-----9-11-12-10/11-----9-11-12-11-11h12-11-9------------------|
G |--11----------------11------------------------11-11/10-8------|
D |--------------------------------------------------------------|
A |---------------------------------------|----------------------|
E |---------------------------------------|----------------------|
kanashi-mi wo Kara-ma-setsu---mu--i-da se----ishun
* * * * * * * * * * * * * * * *
E |-----------------------------------------------------------------------|
B |------------------9-7/9------------------------------------------------|
G |--11-11/10--10-11--------10-10h11---8h10-8--10h11-10-10----------------|
D |--------------------------------------------------------11-11/13-------|
A |---------------------------------------|-------------------------------|
E |---------------------------------------|-------------------------------|
no----o towa no ki-zu----na ha-na no ku-sa-ri yo

Trancriptor: cogedor barato (cogedor_barato@hotmail.com)


Web: http://siguebrillandocosmos.blogspot.com/ (siguebrillandocosmos@hotmail.co
m)

*Este archivo es de libre distribucion pero agradeceria si mantienen los credito


s como estan
*this file is for free distribution but i will appreciate if you keep the credit
s as they are

Related Interests